Ada kesalahan di dalam gadget ini

Tempat Belajar Bahasa Lembur Batur "SENEBIAN EDUCATION FOUNDATION"

Jumat, 17 Februari 2012

Belajar Bahasa Inggris dari lagu: You and I

Song   : You and I
Band   : Scorpions
Album : Pure Instinct Tabbed
By       : Subodh Pun



Intro: C E Am Dm C G

E--------------------|--------------------------------|
B-----10-12-12b-12r-\10|--15b-15-13-------------------|
G--/9----------------|-------------14----14-----------|
D--------------------|----------------14--------------|
A--------------------|--------------------------------|
E--------------------|--------------------------------|

E--------------15-13-12-------------------------------|
B-------12-13------------15-13-15br-13-13h15p13-------|
G--/14-------------------------------------------12---|
D-----------------------------------------------------|
A-----------------------------------------------------|
E-----------------------------------------------------|

Verse I
C           Am Dm               G
I lose control, because of you babe
C           Am Dm                    G
I lose control, when you look at me like this
C                  Am           Dm          G
Something in your eyes that is saying tonight
           C                       Am
I'm not a child anymore, life has opened the door
     Dm            G
To a new exciting life

Verse II
I lose control, when I'm close to you babe
I lose control, don't look at me like this
There's something in your eyes that is saying tonight
Is this love at first sight
Like a flower that grows
Like I'd just want you to know
All the secret of life

Dm                             Em
It's all written down in your life lines
Riff:
E------------------------------------------|
B------------------------------------------|
G---/9-7-7/9-------------------------------|
D----0-0-0-0-------------------------------|
A------------------------------------------|
E------------------------------------------|
Dm                             G
It's written down inside your heart

Chorus:
C5      A5
You and I
D5          G5
Just have a dream
C5               A5
To find our lovely place
D5                G5
Where we can hide away

You and I
And we're just made
To love each other now
Forever and a day

Repeat Intro  C  E  Am  Dm  C  G

Verse III
I lose control, because of you babe
I lose control, don't look at me like this
Something in your eyes that is saying in tonight
I'm so curious for more
Just like never before
In my innocent life

It's all written down n your life lines
Riff:
It's written down inside your heart

Repeat Chorus
Am      G
Time..........
F                            G
When days of innocence are.......
Am                  G
I love you girl.........
F                          G            E
I swear I'm there for you  till...........

Repeat Chorus again but here it's with a different(up) tone.
D      Bm
You and I
G           A
Just have a dream
D           Bm
To find our lovely place
G                 A
Where we can hide away

You and I
Were just made
To love each other now
Forever and a day
Repeat Chorus again and again till fade

THE END......enjoy!!!
Any correction or just anything, please contact me.

Tidak ada komentar:

Posting Komentar

Pengikut

Mengenai Saya

Foto saya
Di latar belakangi oleh kebutuhan Kota Banjar akan pendidikan yang berkualitas, maka sangat diperlukan sekali adanya sebuah media informasi pendidikan yang berbasis ICT (Teknologi Komunikasi dan Informasi) (BCL3;Browsing, Chatting, Learning, Leading and Loving)